Lead To Slaughter

(/) Slide Up  (\) Slide Down  (h) Hammer On  (p) Pull Off  (b) Bend (r) Release (v) Vibrato


E |------------------------------------------------
B |------------------------------------------------
F#|--5-0----1(p)--5-0----1(p)--5-0----1(p)--------- X5
B |-----3-0----------3-0----------3-0-----11111111-



E |----------------------------
B |----------------------------
F#|---------------------------- X4
B |--1(p)-1(p)-0-1(/)-00000000-

E |------------------------------------------------
B |------------------------------------------------
F#|--5-0----1(p)--5-0----1(p)--5-0----1(p)--------- X2
B |-----3-0----------3-0----------3-0-----11111111-

E |------------------------------------------------
B |------------------------------------------------
F#|------------------------------------------------ (just a bunch of open shit, bass solo, whatever)
B |------------------------------------------------


E |------------------------------------------------
B |------------------------------------------------
F#|------------------------------------------------ X2
B |--5(p)-5(p)-5(p)-5(p)-5(p)----------------------

E |------------------------------------------------
B |------------------------------------------------
F#|------------------------------------------------ (just a bunch of open shit, bass solo, whatever)
B |------------------------------------------------


E |------------------------------------------------
B |------------------------------------------------
F#|-------------------5-4(b)----------------------- X8
B |--000000----000000--3---------------------------



Guitar Tab Creator is intended to store guitar tab created through the tool. It currently does not support in-line text editing. Any text you place in here will be lost. If you need to comment on your tab, please use the "Tab Notes" section located below.