Acoustic medley

(/) Slide Up  (\) Slide Down  (h) Hammer On  (p) Pull Off  (b) Bend (r) Release (v) Vibrato

Guitar 1
E|--------------------------------------------------4-----------------------------------------
B|-----------------------------------------------------7--5--7--------------------------------
G|--4--------4--------6--8--4--------4--------6--8--------------8--6--4--------4--------6--8--
D|-----6--6-----6--6-----------6--6-----6--6-----------------------------6--6-----6--6--------
A|--------------------------------------------------------------------------------------------
E|--------------------------------------------------------------------------------------------



E|--------------------------4-----------------------------------------
B|-----------------------------7--5--7--5-----------------------------
G|--4--------4--------6--8-----------------8--6--8--6--8--9--8--6-----
D|-----6--6-----6--6-----------------------------------------------9--
A|--------------------------------------------------------------------
E|--------------------------------------------------------------------



E|-----------------------------------------------
B|-----------4-----5--7--5--4h5\4-----------4----
G|--4--4--6-----4-----------------6--4--------6--x2
D|--------------------------------------6--------
A|-----------------------------------------------
E|-----------------------------------------------
Guitar Tab Creator is intended to store guitar tab created through the tool. It currently does not support in-line text editing. Any text you place in here will be lost. If you need to comment on your tab, please use the "Tab Notes" section located below.