She's Magic

(/) Slide Up  (\) Slide Down  (h) Hammer On  (p) Pull Off  (b) Bend (r) Release (v) Vibrato

E|--------------------------------
B|--------------------------------
G|--------------------------------
D|--------------------------7--6--
A|--7--9--9--7--9--9--9--9--------
E|--------------------------------



E|--------------------
B|--------------------
G|--------------------
D|--7/9--7--9--11--9--
A|--------------------
E|--------------------



E|---------------------------------------------------------------------------
B|---------------------------------------------------------------------------
G|---------------------------------------------------------------------------
D|--------------------------------------------------------------------7h9p7--
A|--5--5--5--5--5--5--6--7--7--7--7--7--7--6--5--5--5--5--5--5--6--7---------
E|---------------------------------------------------------------------------



E|-------------------------------
B|-------------------------------
G|-------------------------------
D|-----------------11--10--9--7--
A|--7--9--9--7--9----------------
E|-------------------------------



E|---------------------------
B|---------------------------
G|---------------------------
D|-----------------7h9p7--5--
A|--5--5--5--6--7------------
E|---------------------------
http://www.guitartabcreator.com
Guitar Tab Creator is intended to store guitar tab created through the tool. It currently does not support in-line text editing. Any text you place in here will be lost. If you need to comment on your tab, please use the "Tab Notes" section located below.