Reaper

(/) Slide Up  (\) Slide Down  (h) Hammer On  (p) Pull Off  (b) Bend (r) Release (v) Vibrato


E|--------------------------------
B|--------------------------------
G|--------------------------------
D|----------------3h5p3-----3-----
A|-----1--1--1h3---------6-----6--
E|--4-----------------------------



E|-----------------------------------------------------------------------
B|-----------------------------------------------------------------------
G|-----------------------------------------------------------------------
D|--------------------8h10p8------8--------------------8h10p8------------
A|----------------------------10-------------------------------10--8--6--
E|--3--3--4--4--6--6-----------------3--3--4--4--6--6--------------------



E|------------------------------------------------------------------------------------------
B|------------------------------------------------------------------------------------------
G|------------------------------------------------------------------------------------------
D|-----------------------------8h10--8--6--8--6---------------------------------------------
A|--6--6--6--6--6--6--8--8--8--------------------8--8--8--6--6--5h6p5-----------------------
E|---------------------------------------------------------------------8--8--8--10--10--10--



E|------------------------------------------------------
B|------------------------------------------------------
G|------------------------------------------------------
D|------------------------------------------------------
A|------------------------------------------------------
E|--7----7--7--7--7--7--7--7--7----7--7--7--7--7--7--7--
http://www.guitartabcreator.com
Guitar Tab Creator is intended to store guitar tab created through the tool. It currently does not support in-line text editing. Any text you place in here will be lost. If you need to comment on your tab, please use the "Tab Notes" section located below.