ghost

(/) Slide Up  (\) Slide Down  (h) Hammer On  (p) Pull Off  (b) Bend (r) Release (v) Vibrato


E|---------------------------------
B|---------------------------------
G|---------------------------------
D|---------------------------------
A|--6----6/8h9--9p8----------------
E|-------------------9----9--9--9--



E|-----------------------------------------------------------------
B|-----------------------------------------------------------------
G|-----------------------------------------------------------------
D|-----------------------------------------------------------------
A|--6--6--6--6--6--8--9--9--9--9--9--8-----------------------------
E|--------------------------------------9--9--9--9--9--9--9--9--9--
http://www.guitartabcreator.com
Guitar Tab Creator is intended to store guitar tab created through the tool. It currently does not support in-line text editing. Any text you place in here will be lost. If you need to comment on your tab, please use the "Tab Notes" section located below.