fragmental information

(/) Slide Up  (\) Slide Down  (h) Hammer On  (p) Pull Off  (b) Bend (r) Release (v) Vibrato


E|-----------------------------
B|-----------------------------
G|-----------------------------
D|-----------------------------
A|-----------6--------6--------
E|--8--8--8-----8--8-----8--6--



E|--------------------------------
B|--------------------------------
G|--------------------------------
D|--------------------------------
A|--------------------------------
E|--4--4--4--6--6--6--8--8--8--6--



E|------------------------------------------------------------
B|------------------------------------------------------------
G|------------------------------------------------------------
D|------------------------------------------------------------
A|-------------------------6-------------------8h10p8--6h8p6--
E|--8--8--8--8--8--8--6h8-----8----8--8--8--8-----------------



E|-----------------------
B|-----------------------
G|-----------------------
D|-----------------------
A|----------6--6h8p6-----
E|--3----6------------8--
http://www.guitartabcreator.com
Guitar Tab Creator is intended to store guitar tab created through the tool. It currently does not support in-line text editing. Any text you place in here will be lost. If you need to comment on your tab, please use the "Tab Notes" section located below.