colour run

(/) Slide Up  (\) Slide Down  (h) Hammer On  (p) Pull Off  (b) Bend (r) Release (v) Vibrato


E|--------------------------------------------------------------------------------
B|--------------------------------------------------------------------------------
G|--------------------------------------------------------------------------------
D|--------------------------------------------------------------------------------
A|--7--7--7--7--7--7--7--7--9--9--9--10--10--10--5--5--5--5--5--3--3--2--3--2--0--
E|--------------------------------------------------------------------------------



E|--------------------------------------------------------------------
B|--------------------------------------------------------------------
G|-----------------------------------------------------------5--------
D|--------------------------------------------7--5--7--5--7-----7--5--
A|--7--7--7--7--7--7--7--9--9--9--10--10--10--------------------------
E|--------------------------------------------------------------------



E|----------------------------------------
B|----------------------------------------
G|----------------------------------------
D|----------------------------------------
A|--------------7--7--5--7----7--7--5--7--
E|--3--3--7--7----------------------------



E|-------------------------------------
B|-------------------------------------
G|-------------------------------------
D|-------------------------------------
A|--7--7\0----5--5\0--3--3\0--2--3-----
E|-------------------------------------



E|-------------------------------------------------------------
B|-------------------------------------------------------------
G|-------------------------------------------3-----------------
D|--9--7-----------7--7--5--7----5--5--3--5-----5--3-----------
A|--------10--7---------------------------------------2--3--5--
E|-------------------------------------------------------------



E|-------------------------------------------------------------------------------
B|-------------------------------------------------------------------------------
G|-------------------------------------------------------------3-----------------
D|--------9--7-----------------7--7--5--7----------5--5--3--5-----5--3-----------
A|--7--7--------10--7----5--5----------------3--3-----------------------2--3--5--
E|-------------------------------------------------------------------------------
http://www.guitartabcreator.com
Guitar Tab Creator is intended to store guitar tab created through the tool. It currently does not support in-line text editing. Any text you place in here will be lost. If you need to comment on your tab, please use the "Tab Notes" section located below.