Back in the day

(/) Slide Up  (\) Slide Down  (h) Hammer On  (p) Pull Off  (b) Bend (r) Release (v) Vibrato


E|--------------------------------------
B|--------------------------------------
G|--------------------------------------
D|--------------------------------------
A|--7--7----7--7--7----7--7----7--7--7--
E|--------------------------------------



E|----------------------------------
B|----------------------------------
G|----------------------------------
D|--------------------------5--7/9--
A|---------------------5h7----------
E|--0--0----0--0----0---------------



E|-----------------------------------------------------------------------------
B|-----------------------------------------------------------------------------
G|-----------------------------------------------------------------------------
D|--------------------------5--7/9--7--5--4--2--------------5--7--7/9\7--5-----
A|---------------------5h7----------------------5------5h7------------------7--
E|--0--0----0--0----0----------------------------------------------------------



E|------------------------------------
B|------------------------------------
G|------------------------------------
D|----------------------------12--12--
A|--7--7----10--10--------------------
E|--------------------10--10----------
http://www.guitartabcreator.com
Guitar Tab Creator is intended to store guitar tab created through the tool. It currently does not support in-line text editing. Any text you place in here will be lost. If you need to comment on your tab, please use the "Tab Notes" section located below.