Prelude by Francisco Tarrega

(/) Slide Up  (\) Slide Down  (h) Hammer On  (p) Pull Off  (b) Bend (r) Release (v) Vibrato

E|--8-----------------|--8-----5-----3-----|--------------------|--------------------|--
B|-----5-----5-----5--|-----6-----6-----3--|--5--------------1--|--------4-----3-----|--
G|-----5-----5-----5--|-----5-----5-----4--|-----5-----5--------|-----2-----2-----1--|--
D|--------7-----------|--------------------|-----5-----5-----2--|-----4-----4-----2--|--
A|--0-----------7-----|--8-----------------|--3-----------0-----|--2-----------------|--
E|--------------------|--------------3-----|--------0-----------|--------------0-----|--



E|--------------------|--------------------|--4-----------------|----------------------|--
B|--2--------2-----2--|--------7-----------|--------------------|-----0-------6-----6--|--
G|-----2-----2-----2--|-----5-----5--5-----|-----4-----4-----4--|-------------4-----4--|--
D|-----2--4-----2-----|-----7-----7-----4--|-----3-----3-----0--|--------3/6-----------|--
A|--0-----------------|--6--------------6--|--4-----------------|-----4----------3-----|--
E|--------------------|--------------4-----|--------4-----2-----|--1-------------------|--



E|--9-----------------|---------8------11p9------|--6-----------------|--------6-----5-----|--
B|-----7-----7-----7--|-----10-----10--------10--|-----6-----6-----6--|-----5-----5-----5--|--
G|-----6-----6-----6--|-----8------8---------8---|-----6-----6-----6--|-----6-----6-----6--|--
D|--------8-----------|--------------------------|--------8-----6-----|--5-----------------|--
A|--------------6-----|--8-----------------------|--------------------|--------------------|--
E|--6-----------------|--------------------------|--6-----------------|--------------------|--



E|-------0-----0-----0--|------------------------|--0-----------------|----------------8-----|--
B|-------9-----9-----9--|--------0------------0--|--------------------|----------------------|--
G|--3/9-----------------|---------------8-----7--|-----6-----6-----6--|---------8---------9--|--
D|----------------------|--------13-----9-----6--|-----5-----5-----5--|-----8------8------8--|--
A|----------------7-----|--1/11------------------|--0-----------0-----|-----10-----10--------|--
E|----------9-----------|------------7-----0-----|--------7-----------|--8-------------8-----|--



E|--8-----------------|--------------5-----|--2-----------2-----|--4-----------4-----|--
B|-----6--6-----------|--------5-----------|-----4-----4-----4--|-----3-----3-----3--|--
G|-----------5-----5--|-----6-----6-----6--|-----4-----4-----4--|-----4-----4-----4--|--
D|-----7-----7-----7--|-----7-----7-----7--|--------2-----------|--------2-----------|--
A|--8-----------6-----|--7-----------------|--------------2-----|--------------------|--
E|--------------------|--------------------|--0-----------------|--0-----------0-----|--



E|--5-----------------|----------1-----0-----|--0-----------------|--------------------|--
B|-----2-----2-----2--|-------1-----3-----3--|-----2-----2-----2--|-----1-----3-----3--|--
G|-----2-----2-----2--|-------2-----3-----1--|-----2--0-----------|-----2-----3-----1--|--
D|--------5-----------|--0/3-----0-----------|--------------------|--3-----0--------2--|--
A|--0-----------0-----|----------------------|--0-----------0-----|--------------------|--
E|--------------------|----------------0-----|--------------------|--------------0-----|--



E|--------------|--|--
B|--3--2--0--2--|--|--
G|--2-----------|--|--
D|--2-----------|--|--
A|--0-----------|--|--
E|--------------|--|--
http://www.guitartabcreator.com
Guitar Tab Creator is intended to store guitar tab created through the tool. It currently does not support in-line text editing. Any text you place in here will be lost. If you need to comment on your tab, please use the "Tab Notes" section located below.