Manzanares Del Real by Federico Moreno Torroba

(/) Slide Up  (\) Slide Down  (h) Hammer On  (p) Pull Off  (b) Bend (r) Release (v) Vibrato

E|--------------------------|-------------------|--------------------------|-----------------------|--
B|------10--10------10--10--|------10-----------|------10--10------10--10--|------10--10-----------|--
G|------7---7-------7---7---|------7------------|------7---7-------7---7---|------7---7------------|--
D|------7---7-------7---7---|------7------------|------7---7-------7---7---|------7---7------------|--
A|--10----------10----------|--10------5-----5--|--10----------10----------|--10----------5-----5--|--
E|--------------------------|-------------3-----|--------------------------|-----------------3-----|--



E|-----4--4-----6--6--|-----4--4-----6--6--|-----1--1-----------|--------------------|--|--
B|-----6--6-----8--8--|-----6--6-----8--8--|-----1--1-----5--5--|-----5--5-----5--5--|--|--
G|-----6--6-----8--8--|-----6--6-----8--8--|-----2--2-----5--5--|-----5--5-----4--4--|--|--
D|--5-----------------|--5-----------------|--------------3--3--|--6--3--3-----3--3--|--|--
A|-----------8--------|-----------8--------|-----------0--------|--------------------|--|--
E|--------------------|--------------------|--3-----------------|-----------3--------|--|--



E|-----------3--3--1--|--0h1p0--------------|--------------------|-------------------------|--
B|-----1--3-----------|---------3--1--3-----|-----1--3--8--8--6--|--5h6p5--------10--------|--
G|-----0--------------|------------------0--|-----0--------------|---------7--5------9--7--|--
D|--------------------|---------------------|--------------------|-------------------7-----|--
A|--3--------2--------|------0--------2-----|--3-----------------|---------------8---------|--
E|--------------------|---------------------|-----------7--------|------5------------------|--



E|--5--------5--------|-----4--------------|--------------------|--------------------|--
B|--------------------|--------6--5--3-----|--------------------|-----------0--------|--
G|-----7--6-----7--5--|-----4-----------5--|--4--2--1-----------|--2-----------------|--
D|-----5--------5-----|--------------------|-----------3--2--0--|-----3--2-----3--2--|--
A|--7--------6--------|--------------------|--------------------|--0-----------------|--
E|--------------------|--0--------0--------|--------------------|-----------4--------|--



E|--------------0-----|-----3-----6--4--8--|-----12--8--5--------|-----------------0-----|--|--
B|--2--------------3--|-----3--6-----------|-----10--8--5--8--5--|-----------------0--3--|--|--
G|-----3--2-----2-----|-----------0--------|--0------------5-----|--5--2--0-----2--------|--|--
D|-----2--------3-----|--------------3--6--|------------------7--|--5--2--------3--------|--|--
A|--------------------|--------------------|---------------------|--------3--------------|--|--
E|--3--------1--------|--4-----------------|---------------------|-----------3-----------|--|--



E|-----------3--3--1--|--0h1p0--------------|--------------------|-------------------------|--
B|-----1--3-----------|---------3--1--3-----|-----1--3--8--8--6--|--5h6p5--------10--------|--
G|-----0--------------|------------------0--|-----0--------------|---------7--5------9--7--|--
D|--------------------|---------------------|--------------------|-------------------7-----|--
A|--3--------2--------|------0--------2-----|--3-----------------|---------------8---------|--
E|--------------------|---------------------|-----------7--------|------5------------------|--



E|--5--------5--------|----------------------|-------------------------|--------------------|--
B|--------------------|-----9----------------|-------------------------|-----------0--------|--
G|-----7--6-----7--5--|--------10--9--7------|-------------------------|--2-----------------|--
D|-----5--------5-----|-----9------------10--|--9h10p9--7--6-----------|-----3--2-----3--2--|--
A|--7--------6--------|----------------------|----------------8--7--5--|--0-----------------|--
E|--------------------|--0-------------------|-------------------------|-----------4--------|--



E|--------------0-----|--------------------|---------8------8------|--10------------12--10--|--
B|--2--------------3--|-----------1--3--5--|--8--10--8--10--8--10--|--10------------10------|--
G|-----3--2-----2-----|-----0--2-----------|-----------------------|--10------------10------|--
D|-----2--------3-----|-----2--------------|-----------------------|--10--9------9----------|--
A|--------------------|--------------------|-----------------------|---------12-------------|--
E|--3--------1--------|--3-----------------|-----------------------|------------------------|--



E|-----------------|---------------5--|--7-----------|--7--7--|--8--------------------|--
B|--------8--8--6--|--5h6p5--------6--|--8-----------|--8--6--|--8--------------------|--
G|--5--7-----------|---------7--5--5--|--7-----------|--7--7--|--9--------------------|--
D|--5--------------|------------------|--------------|-----5--|-----------------------|--
A|-----------------|---------------8--|--7-----------|--7-----|------------10--10--8--|--
E|--8-----7--------|------5-----------|-----0--0--0--|--0-----|-----8--10-------------|--



E|------------------------|-----------------5--|--8--0--|--|--
B|------------------------|-----------5--8-----|-----1--|--|--
G|------------------------|-----5--7-----------|-----0--|--|--
D|---------------------5--|--7-----------------|-----2--|--|--
A|--7h8p7--5-----5--7-----|--------------------|-----3--|--|--
E|------------8-----------|--------------------|--------|--|--
http://www.guitartabcreator.com
Guitar Tab Creator is intended to store guitar tab created through the tool. It currently does not support in-line text editing. Any text you place in here will be lost. If you need to comment on your tab, please use the "Tab Notes" section located below.