It was nothing like those dreams that I had

(/) Slide Up  (\) Slide Down  (h) Hammer On  (p) Pull Off  (b) Bend (r) Release (v) Vibrato

E|--------------------------
B|--------------------------
G|--------------------------
D|-----0-----0-----0-----4--
A|--------------------------
E|--2-----2-----2-----2-----



E|-------------------
B|-------------------
G|-------------------
D|-------------------
A|--9------7----5----
E|-------------------



E|-------------------------------------------------
B|--2/3----5--3--2---------------------------------
G|--------------------2----4----4--2------------2--
D|------------------------------------0----2-------
A|-------------------------------------------------
E|-------------------------------------------------



E|--
B|--
G|--
D|--
A|--
E|--
http://www.guitartabcreator.com
Guitar Tab Creator is intended to store guitar tab created through the tool. It currently does not support in-line text editing. Any text you place in here will be lost. If you need to comment on your tab, please use the "Tab Notes" section located below.