star spangled banner

(/) Slide Up  (\) Slide Down  (h) Hammer On  (p) Pull Off  (b) Bend (r) Release (v) Vibrato

E|------------------8--12--10--8------------------12--10--8--------------8--8------------
B|--8------------8-----------------------8--8--8-------------12--10--12--------8---------
G|-----9------9-------------------9--11-------------------------------------------9------
D|--------10-------------------------------------------------------------------------10--
A|---------------------------------------------------------------------------------------
E|---------------------------------------------------------------------------------------



E|------------------8--12--10--8------------------12--10--8--------------8--8------------
B|--8------------8-----------------------8--8--8-------------12--10--12--------8---------
G|-----9------9-------------------9--11-------------------------------------------9------
D|--------10-------------------------------------------------------------------------10--
A|---------------------------------------------------------------------------------------
E|---------------------------------------------------------------------------------------



E|--12--12--12--13--15--15--13--12------12--13--13--13--12--------------------------------------
B|----------------------------------15----------------------15--13--12------12--13--------------
G|----------------------------------------------------------------------14------------------12--
D|----------------------------------------------------------------------------------14--16------
A|----------------------------------------------------------------------------------------------
E|----------------------------------------------------------------------------------------------



E|--------------------------------------12--13--12------------------
B|------13--13--13--12--------------15--------------15--13--13--12--
G|--12------------------14--14--14----------------------------------
D|------------------------------------------------------------------
A|------------------------------------------------------------------
E|------------------------------------------------------------------



E|------------------12--13--15----------12--13----------
B|----------13--15--------------13--15----------15--13--
G|--12--12----------------------------------------------
D|------------------------------------------------------
A|------------------------------------------------------
E|------------------------------------------------------
http://www.guitartabcreator.com
Guitar Tab Creator is intended to store guitar tab created through the tool. It currently does not support in-line text editing. Any text you place in here will be lost. If you need to comment on your tab, please use the "Tab Notes" section located below.