NEW song!

(/) Slide Up  (\) Slide Down  (h) Hammer On  (p) Pull Off  (b) Bend (r) Release (v) Vibrato

Stave 1:

E|---------7-------------7---------7-------------7-------------7-------------7-------------7---------
B|-----10-----10-----10--------10-----10-----10-----10-----10-----10-----10-----10-----10-----10-----
G|--9-------------9---------9-------------9-------------9-------------9-------------9-------------9--
D|---------------------------------------------------------------------------------------------------
A|---------------------------------------------------------------------------------------------------
E|---------------------------------------------------------------------------------------------------

Stave 2:

E|--------7-----------7--------7-----------7-----------7-----------7-----------7-----------7-----------
B|-----9-----9-----9--------9-----9-----9-----9-----9-----9-----9-----9-----9-----9-----9-----9-----9--
G|--9-----------9--------9-----------9-----------9-----------9-----------9-----------9-----------9-----
D|-----------------------------------------------------------------------------------------------------
A|-----------------------------------------------------------------------------------------------------
E|-----------------------------------------------------------------------------------------------------

http://www.guitartabcreator.com
Guitar Tab Creator is intended to store guitar tab created through the tool. It currently does not support in-line text editing. Any text you place in here will be lost. If you need to comment on your tab, please use the "Tab Notes" section located below.