The Ballad

(/) Slide Up  (\) Slide Down  (h) Hammer On  (p) Pull Off  (b) Bend (r) Release (v) Vibrato

E|--0--0-----------0-----0--0-----------0-----0--0-----------0-----0--0-----------0-----
B|--0-----------0-----0--0-----------0-----0--0-----------0-----0--0-----------0-----0--
G|--5--------5-----------5--------5-----------5--------5-----------5--------5-----------
D|--7-----7--------------6-----6--------------5-----5--------------4-----4--------------
A|--------------------------------------------------------------------------------------
E|--------------------------------------------------------------------------------------



E|--0--0-----------0-----0--0-----------0--0--0-----------0-----
B|--6-----------6-----6--5-----------5-----3-----------3-----3--
G|--7--------7-----------5--------5--------3--------3-----------
D|--0-----0--------------0-----0-----------0-----0--------------
A|--------------------------------------------------------------
E|--------------------------------------------------------------



E|--0--0-----------0-----0--0-----------0-----0--0-----------0-----0--0-----------0-----
B|--0--0--------0--------0--0--------0--------0--0--------0--------0--0--------0--------
G|--5--5-----5-----------5--5-----5-----------5--5-----5-----------5--5-----5-----------
D|--7--7--7-----------7--6--6--6-----------6--5--5--5-----------5--4--4--4-----------4--
A|--------------------------------------------------------------------------------------
E|--------------------------------------------------------------------------------------



E|--
B|--
G|--
D|--
A|--
E|--
http://www.guitartabcreator.com
Guitar Tab Creator is intended to store guitar tab created through the tool. It currently does not support in-line text editing. Any text you place in here will be lost. If you need to comment on your tab, please use the "Tab Notes" section located below.