untitled

(/) Slide Up  (\) Slide Down  (h) Hammer On  (p) Pull Off  (b) Bend (r) Release (v) Vibrato
E|-----7-----7-9-----7-----7-5-
B|-----------------------------
G|---6-----6-------6-----6-----
D|-7-----7-------5-----4-------
A|-----------------------------
E|-----------------------------



E|-----------------------
B|-----------------------
G|-------6-----9------11-
D|-----7-----9-----11----
A|---7-----7-----9-------
E|-5---------------------



E|--------7--5-----------------------------5--3-----
B|--------------------5--------5--------3-----------
G|-----7-----------6--------5--------4-----------4--
D|--------------------------------------------------
A|--------------------------------------------------
E|--7-----------5--------5--------3-----------------



E|--9--7--------------------------------
B|--------10--7-----7--10--7-----7--10--
G|---------------9------------9---------
D|--------------------------------------
A|--------------------------------------
E|--------------------------------------
http://www.guitartabcreator.com
Guitar Tab Creator is intended to store guitar tab created through the tool. It currently does not support in-line text editing. Any text you place in here will be lost. If you need to comment on your tab, please use the "Tab Notes" section located below.