Blue Sky

(/) Slide Up  (\) Slide Down  (h) Hammer On  (p) Pull Off  (b) Bend (r) Release (v) Vibrato

E|------------------------------------12--------------
B|----------------------------12--14------14----------
G|------------------9--11/13------------------11b--9--
D|-----------9--11------------------------------------
A|--7--9/11-------------------------------------------
E|----------------------------------------------------



E|-------------------------
B|-----9-------------------
G|--9-----9--11--9---------
D|------------------11--9--
A|-------------------------
E|-------------------------



E|-------------------------------------------------
B|-------------------------------------------------
G|--11b12b11--9--11b12--11b12--9--11r9------9--11--
D|--------------------------------------11---------
A|-------------------------------------------------
E|-------------------------------------------------
http://www.guitartabcreator.com
Guitar Tab Creator is intended to store guitar tab created through the tool. It currently does not support in-line text editing. Any text you place in here will be lost. If you need to comment on your tab, please use the "Tab Notes" section located below.