And The Band Played-Outro-mbs lead

(/) Slide Up  (\) Slide Down  (h) Hammer On  (p) Pull Off  (b) Bend (r) Release (v) Vibrato


E|--
B|-------------------------------------------------------------------|---5--55-5-(b)7(r)7(p)5-55-5
G|(b)4(r)4-2--1(h)2-(p)1-(h)2(p)1-(b)4(r)4-2-1(h)2(p)1-2/4-----------|4/6-6---6--------------6--6-
D|-------------------------------2-----------------------------2-4-2-|----------------------------
A|----------------------------------------------------------2/4------|----------------------------
E|--
http://www.guitartabcreator.com
E)----------------------------------7-------|
B)---5--55-5-(b)7(r)7(p)5-55-5--(b)7-(r)7-5-|
G)4/6-6---6--------------6--6---------------|
D)------------------------------------------|
A)------------------------------------------|
E)
Guitar Tab Creator is intended to store guitar tab created through the tool. It currently does not support in-line text editing. Any text you place in here will be lost. If you need to comment on your tab, please use the "Tab Notes" section located below.