Sultans of Swing

(/) Slide Up  (\) Slide Down  (h) Hammer On  (p) Pull Off  (b) Bend (r) Release (v) Vibrato

E|-----------------------------------------------------------------------------------
B|--6--6--5---------------------0-10--8----6--6--5-----------------------------------
G|--7--7--5--7--10--10--9---9---0/10--9----7--7--5--7--10--10--9---9--------------5--
D|-----------8--10--10--10--10----------------------8--10--10--10--10-------5--7-----
A|---------------------------------------------------------------------0/7-----------
E|-----------------------------------------------------------------------------------



E|------------------------------------5--8--5----------------------------------------------
B|------------------------6--------6-----------6--5h6p5------------------------------------
G|--5--5--5h7-------7--------7--7------------------------7--12b21--12b21--12b21--12b21-----
D|--5--5--5-7--5/7-----7-------------------------------------------------------------------
A|-----------------------------------------------------------------------------------------
E|-----------------------------------------------------------------------------------------



E|---------------------------------------------9--12b21--10--------------------------------
B|-----------------------------------------10----------------10----------10--13--11h13p11--
G|--10h12p10--9h10p9--7-----------------9------------------------10------------------------
D|-----------------------7----------11-------------------------------12--------------------
A|--------------------------12--12---------------------------------------------------------
E|-----------------------------------------------------------------------------------------



E|----------------------------------------13---------------------0/13--12-----------------
B|--9h10--11--9h10-------------13-------------13---------------------------13-------------
G|----------------------12b21------12b21----------12b12--10--10----------------12--14-----
D|------------------11--------------------------------------------------------------------
A|----------------------------------------------------------------------------------------
E|----------------------------------------------------------------------------------------



E|--------------------------------------------------13p10------10-------------------------
B|------13--13--13b21--13b13--11--13b21--13b21--10---------10------13b21--10--10----------
G|--12----------------------------------------------------------------------------12--10--
D|----------------------------------------------------------------------------------------
A|----------------------------------------------------------------------------------------
E|----------------------------------------------------------------------------------------



E|-----------------------------------------------------------------------------------------------
B|--------3--6p3--------5--6--6/8--6--5--6/8--------3--6p3-------------------------8-------------
G|-----3-------------5---------------------------3----------3/5-----5--7--5--7b21-----7b7--7--7--
D|--3-------------5---------------------------3------------------5-------------------------------
A|-----------------------------------------------------------------------------------------------
E|-----------------------------------------------------------------------------------------------



E|--------------------------------------------------------------------------------------
B|------------------------------------------------------------------10p8------8---------
G|--12b21--12b12--10h12p10--12b12--12--9h12p9--7h9p7--5h7p5--5------------10-----10--7--
D|-----------------------------------------------------------5h7p5----------------------
A|--------------------------------------------------------------------------------------
E|--------------------------------------------------------------------------------------



E|-------------8----------------------8----------------------8----------------------8-----------
B|--8h10p8--------10p8-----8h10p8--------10p8-----8h10p8--------10p8-----8h10p8--------10p8-----
G|----------9-----------9----------9-----------9----------9-----------9----------9--------------
D|----------------------------------------------------------------------------------------------
A|----------------------------------------------------------------------------------------------
E|----------------------------------------------------------------------------------------------



E|----------------8----------------------8-----------
B|-----8h10p8--------10p8-----8h10p8--------10p8-----
G|--9----------9-----------9----------9-----------9--
D|---------------------------------------------------
A|---------------------------------------------------
E|---------------------------------------------------
http://www.guitartabcreator.com
Guitar Tab Creator is intended to store guitar tab created through the tool. It currently does not support in-line text editing. Any text you place in here will be lost. If you need to comment on your tab, please use the "Tab Notes" section located below.