Do I Wanna Know?- Arctic Monkeys (Guitar)

(/) Slide Up  (\) Slide Down  (h) Hammer On  (p) Pull Off  (b) Bend (r) Release (v) Vibrato

Stave 1:

E|--------------------------------------------------------
B|--------------------------------------------------------
G|--------------------------------------------------------
D|--------------------------------------------------------
A|-------1----------1--8--6--5--3--1h3/5/3--1h3--5--5-----
E|--1h3-----3--1h3-------------------------------------3--

Stave 2:

E|---------------------------------------------------
B|---------------------------------------------------
G|---------------------------------------------------
D|---------------------------------------------------
A|-------1----------1--8--6--5--3--1h3/5/3--1h3--5v--
E|--1h3-----3--1h3-----------------------------------

Stave 3:

E|---------------------------------------------
B|---------------------------------------------
G|---------------------------------------------
D|---------------------------------------------
A|--6--3h5/6--5--3--1--3--1h3/5----------1-----
E|-------------------------------3--1h3-----3--

Stave 4:

E|-------------------------------------
B|-------------------------------------
G|-------------------------------------
D|-------------------------------------
A|--6--3h5/6--5--3--1--3--1h3/5--------
E|-------------------------------3--3--

Stave 5:

E|------------------------------------------------
B|------------------------------------------------
G|------------------------------------------------
D|------------------------------------------------
A|----------1--8--6--5--3--1h3/5/3--1h3--5--5-----
E|--3--1h3-------------------------------------3--

Stave 6:

E|------------------
B|------------------
G|------------------
D|--------------17--
A|--------------17--
E|--3v--3v--3v--15--

http://www.guitartabcreator.com
Guitar Tab Creator is intended to store guitar tab created through the tool. It currently does not support in-line text editing. Any text you place in here will be lost. If you need to comment on your tab, please use the "Tab Notes" section located below.