Don't Hold Back

(/) Slide Up  (\) Slide Down  (h) Hammer On  (p) Pull Off  (b) Bend (r) Release (v) Vibrato

E|----------------------------------------------------------------------------------
B|----------------------------------------------------------------------------------
G|----------------------------------------------------------------------------------
D|----------------------------------------------------------------------------------
A|--------5--5h6--------------5--5h6--------------5--5h6--------6h8----8p6-----6p5--
E|--0--0----------0--0--0--0----------0--0--0--0----------0--0--------------0-------



E|--------------------------------------------------------------------------------------------------
B|--------------------------------------------------------------------------------------------------
G|--------------------------------------------------------------------------------------------------
D|--------------------------------------------------------------------------------------------------
A|--------------------------------------------------------------------------------------------------
E|--0--0--0--0--0--0--0--0--0--0--0--0--0--0--0--0--2--2--3--3--3--3--3--3--3--3--3--3--3--3--3--5--



E|--------------------------------------------------------------------------------------------------
B|--------------------------------------------------------------------------------------------------
G|--------------------------------------------------------------------------------------------------
D|--------------------------------------------------------------------------------------------------
A|--------------------------------------------------------------------------------------------------
E|--0--0--0--0--0--0--0--0--0--0--0--0--0--0--0--0--2--2--3--3--3--3--3--3--3--3--3--3--3--3--3--2--



E|--------------------------------------------------------------------------------------------------
B|--------------------------------------------------------------------------------------------------
G|--------------------------------------------------------------------------------------------------
D|--------------------------------------------------------------------------------------------------
A|--------------------------------------------------------------------------------------------------
E|--0--0--0--0--0--0--0--0--0--0--0--0--0--0--0--0--2--2--3--3--3--3--3--3--3--3--3--3--3--3--3--5--



E|--------------------------------------------------------------------------------------------------
B|--------------------------------------------------------------------------------------------------
G|--------------------------------------------------------------------------------------------------
D|--------------------------------------------------------------------------------------------------
A|--------------------------------------------------------------------------------------------------
E|--0--0--0--0--0--0--0--0--0--0--0--0--0--0--0--0--2--2--3--3--3--3--3--3--3--3--3--3--3--3--3--2--



E|------------------------------------------------------------------------------
B|------------------------------------------------------------------------------
G|--------7----5--5----------7----5--5----------7----5--5-----------------------
D|--------7----3--2----------7----3--2----------7----3--2--------3--5--6--5--0--
A|--------5----3--2----------5----3--2----------5----3--2--------3--5--6--5--0--
E|--0--0---------------0--0---------------0--0-------------------3--5--6--5--0--



E|--
B|--
G|--
D|--
A|--
E|--
http://www.guitartabcreator.com
Guitar Tab Creator is intended to store guitar tab created through the tool. It currently does not support in-line text editing. Any text you place in here will be lost. If you need to comment on your tab, please use the "Tab Notes" section located below.