It Would Never Work

It Would Never Work By: Byron Booth

Intro:
G C C G

E|--3--3--3--3--7--5--3-----0--0--0--0-------0--0--0--0--3--
B|--0--0--0--0--0--0--0-----1--1--1--1-------1--1--1--1--0--
G|--0--0--0--0--------------0--0--0--0-------0--0--0--0--0-- ( Play Twice)
D|--0--0--0--0--------------2--2--2--2--0h2--2--2--2--2--0--
A|--2--2--2--2--------------3--3--3--3-------3--3--3--3--2--
E|--3--3--3--3-------------------------------------------3--

1st Verse
G C
Well it would never work
G C
I’ve been down that road once before
Am D
and now I keep thinking
Am D
about the greener grass and the brighter shores

2nd Verse
G C
I always think about the good
G C
And leave out the bad
Am D
I always tend to forget
Am D
all the times we were a mess

Chorus
D G C D
But I will pull through
D G C D
And I won’t even try to call you
D G C D
This will all pass
D G C D
I’ll move on and I won’t look back

2nd Intro
G C C G

E|--3--3--3--3--7--5--3-----0--0--0--0-------0--0--0--0--3--
B|--0--0--0--0--0--0--0-----1--1--1--1-------1--1--1--1--0--
G|--0--0--0--0--------------0--0--0--0-------0--0--0--0--0-- ( Play Twice)
D|--0--0--0--0--------------2--2--2--2--0h2--2--2--2--2--0--
A|--2--2--2--2--------------3--3--3--3-------3--3--3--3--2--
E|--3--3--3--3-------------------------------------------3--

3rd Verse
G C
You were a lot of things to me
G C
but I never thought like this
Am D
I always thought I’d be prepared
Am D
but as it turns out I was scared

Bridge
G C C G

E|--3--3--3--3--7--5--3-----0--0--0--0-------0--0--0--0--3--
B|--0--0--0--0--0--0--0-----1--1--1--1-------1--1--1--1--0--
G|--0--0--0--0--------------0--0--0--0-------0--0--0--0--0-- ( Play Twice)
D|--0--0--0--0--------------2--2--2--2--0h2--2--2--2--2--0--
A|--2--2--2--2--------------3--3--3--3-------3--3--3--3--2--
E|--3--3--3--3-------------------------------------------3--
Am D
E|-------0--0--0--0--0--0--0--2--2--2--2--2--2--2--
B|--0h1--1--1--1--1--1--1--3--3--3--3--3--3--3--3--
G|-------2--2--2--2--2--2--2--2--2--2--2--2--2--2-- ( Play Twice )
D|-------2--2--2--2--2--2--2--0--0--0--0--0--0--0--
A|-------0--0--0--0--0--0--0-----------------------
E|-------------------------------------------------

Chorus
D G C D
But I will pull through
D G C D
And I won’t even try to call you
D G C D
This will all pass
D G C D
I’ll move on and I won’t look back
Am D
Someday you know
Am D G
I’ll be ok and on my own
Guitar Tab Creator is intended to store guitar tab created through the tool. It currently does not support in-line text editing. Any text you place in here will be lost. If you need to comment on your tab, please use the "Tab Notes" section located below.