Ripple Intro

(/) Slide Up  (\) Slide Down  (h) Hammer On  (p) Pull Off  (b) Bend (r) Release (v) Vibrato
E|-----------------3----------------------0-----
B|-----------------0--------0-----0-------1-----
G|--------------0--0-----0-----2-----0----0-----
D|-----------0-----0----------------------2-----
A|--2--2--3--------2----------------------3-----
E|-----------------3----------------------------



E|----------0-----------------------------3--
B|----------1-----------------------------0--
G|-------0--0--0h2--0----------0----------0--
D|--0h2-----2-------------0h2-----0h2--0--0--
A|----------3-----------------------------2--
E|----------------------------------------3--



E|-----------------3--------------------0--
B|-----------------0--------0-----0-----1--
G|-----------------0-----0-----2-----0--0--
D|-----------0-----0--------------------2--
A|--2--2--3--------2--------------------3--
E|-----------------3-----------------------



E|-------3--------2--------------3-
B|-------0--0--1--3--------------0-
G|--0h2--0--------2-----0--0--2--0-
D|-------0--------0--2-----------0-
A|-------2-----------------------2-
E|-------3-----------------------3-
http://www.guitartabcreator.com
Guitar Tab Creator is intended to store guitar tab created through the tool. It currently does not support in-line text editing. Any text you place in here will be lost. If you need to comment on your tab, please use the "Tab Notes" section located below.