Sacrifices by Random Chaos

(/) Slide Up  (\) Slide Down  (x) Palm Mute


Intro Verse
E|-----|-------------------------------------------------------------------------|
B|-----|-------------------------------------------------------------------------|
G|-----|-------------------------------------------------------------------------|
D|-----|------5/7-----5\3-----5/7------------------5/7-----5/3-----5/7-----8-7-10|
A|-----|------3/5-----3\1-----3/5------------------3/5-----3/1-----3/5-----6-5-8-|
D|xx1--|-x-x-x---x-x-x---x-x-x---x-x-x---xx1--xxxxx---xxxxx---xxxxx---xxxxx------|


Chorus Repeat 4x//First 3x//Last Repeat (leads into verse/bridge)
E|--------------------|-----||--------|
B|--------------------|-----||--------|
G|--------------------|-----||--------|
D|8-8-888--------0-0-0|00-00||33311101|
A|8-8-888-xx8757-0-0-0|00-00||11100001|
D|8-8-888-xx8757-0-0-0|00-00||------01|


Bridge

E|---------------------------------------------------------------------------------------------
B|---------------------------------------------------------------------------------------------
G|---------------------------------------------------------------------------------------------
D|---------8-7---------8-7-10---------8-7---------8-7-10--1----1--1----1---5-1----1--1---1---5-
A|0xx0--0xx---0xx0--0xx------0xx0--0xx---0xx0--0xx--------1-xx-1--1-xx-1-x-3-1-xx-1--1xx-1-x-3-
D|0xx0--0xx---0xx0--0xx------0xx0--0xx---0xx0--0xx----------xx------xx---x-----xx-----xx---x---


Bridge Cont.
Return to Chorus
E|---------------------------||
B|---------------------------||
G|---------------------------||
D|---------8-7---------8-7-10||
A|0xx0--0xx---0xx0--0xx------||
D|0xx0--0xx---0xx0--0xx------||
Guitar Tab Creator is intended to store guitar tab created through the tool. It currently does not support in-line text editing. Any text you place in here will be lost. If you need to comment on your tab, please use the "Tab Notes" section located below.