Brandon Beck's Guitar No. 7

(/) Slide Up  (\) Slide Down  (h) Hammer On  (p) Pull Off  (b) Bend (r) Release (v) Vibrato


E|-------------------------------------------------------------------------------------
B|-----------------------------------------------------------------------10------------
G|-----------------------------------------------------7-9-------11p9-12----9-11-14p12-
D|-----------------------------------3---------2-4-7h9-----7-9b9-----------------------
A|---2-3-2-------2-------3-2-1-0-2h4---4-2-4b4-2-4-------------------------------------
E|-1-------1-3-3---1-3-3-3-2-1-0-------------------------------------------------------



E|------------0-------------------------------------------------------------------------
B|-------9-11---------------------------------------------------------------------------
G|-10-12------0-------------------------------------------------------------------------
D|--------------3-5-4b4-------3-5-5-3-----5---------5-7b9-9b9---------7-9-7-9b9-9p7-7-9-
A|----------------------5-3-5---------5-3-5-7-9-5-7-----------7-9-7b7-------------------
E|--------------------------------------------------------------------------------------



E|---------------------------------------------------------------
B|---------------------------------------------------------------
G|-------------------------------------7-------------------------
D|-7-9b9-7h8-5-7-5-0-7-9-7b7-5-7-7-0-5-7-----7-5---7-5-7-5-0-----
A|---------------------------------------5-7-----5-7-5-7-5-0-----
E|---------------------------------------------------------------
http://www.guitartabcreator.com
Guitar Tab Creator is intended to store guitar tab created through the tool. It currently does not support in-line text editing. Any text you place in here will be lost. If you need to comment on your tab, please use the "Tab Notes" section located below.