Why Does it always Rain on Me - Travis (Bass)

(/) Slide Up  (\) Slide Down  (h) Hammer On  (p) Pull Off  (b) Bend (r) Release (v) Vibrato

E|-------------------|--------------------|--------------------|--------------------
B|-------------------|--------------------|--------------------|--------------------
G|-------------------|--------------------|--------------------|--------------------
D|-------------------|--------------------|--7--------6--------|--------------------
A|--7--7--7--0h7--0--|--------------------|--------------------|--9--------7--------
E|-------------------|--7--7--7--9--7--7--|--------------------|--------------------



E|-------------------|---------------------|-----
B|-------------------|---------------------|-----
G|-------------------|---------------------|-----
D|-------------------|---------------------|-----
A|--7----------------|--0h4--------0h4--6--|-----
E|-------------------|---------------------|-----



E|--
B|--
G|--
D|--
A|--
E|--
http://www.guitartabcreator.com
Guitar Tab Creator is intended to store guitar tab created through the tool. It currently does not support in-line text editing. Any text you place in here will be lost. If you need to comment on your tab, please use the "Tab Notes" section located below.