A Beard of Stars (Ver 2)

(/) Slide Up  (\) Slide Down  (h) Hammer On  (p) Pull Off  (b) Bend (r) Release (v) Vibrato
E|-------------------------------------------------------
B|--13--12--13v------------------------------------------
G|---------------14--12--14b16r14------12--14--14b16r14--
D|---------------------------------15--------------------
A|-------------------------------------------------------
E|-------------------------------------------------------



E|-----------------------------------------------------------------
B|--13--12--13v----------------------------------------------------
G|---------------14--12--14b16r14------12--14--14b16r15--15b16r14--
D|---------------------------------15------------------------------
A|-----------------------------------------------------------------
E|-----------------------------------------------------------------



E|--------------------------------------------------------------
B|--------------------------------------------------------------
G|--12------12v------------------------------------12------14v--
D|------14-------14--12\10--10--12--10--10--12/14------14-------
A|--------------------------------------------------------------
E|--------------------------------------------------------------



E|-------------------------------------------------------------------------
B|-------------------------------------------------------------------------
G|--12----------------------12------------------------------------12--14v--
D|------14--12--12--14--12------14--12\10--12--10--10--10--12/14-----------
A|-------------------------------------------------------------------------
E|-------------------------------------------------------------------------



E|--------------------------------------------------------------
B|--------------13v--12--13--12----------12--13--12--13--13b15--
G|------12--14-------------------14--14-------------------------
D|--14----------------------------------------------------------
A|--------------------------------------------------------------
E|--------------------------------------------------------------



E|-------------------------------------------------------------
B|--12--13--15b17--15b17r15--13------------------13b15--13b15--
G|-------------------------------14------12--14----------------
D|-----------------------------------14------------------------
A|-------------------------------------------------------------
E|-------------------------------------------------------------



E|-----------------------------------------------------------------
B|----------------------------------------------------------13-----
G|--14------12--14--14b16--14b16--14b16r14--12------12--14---------
D|------14--------------------------------------14-----------------
A|-----------------------------------------------------------------
E|-----------------------------------------------------------------



E|-------------------------------------------------------------------------
B|--15b17r15--15b17r15--15b17r15--15b17r15--15b17r15--13--------------13v--
G|--------------------------------------------------------14--12--14-------
D|-------------------------------------------------------------------------
A|-------------------------------------------------------------------------
E|-------------------------------------------------------------------------



E|-------------------------------------------------------------------------
B|----------13--15b17r15--15b17r15--------------------------13-------------
G|--12--14--------------------------14--12----------12--14------14--12-----
D|------------------------------------------14--14-------------------------
A|-------------------------------------------------------------------------
E|-------------------------------------------------------------------------



E|-------------------------20--17------17--20--17------17h20--17--
B|--------------13--15b17----------20--------------20-------------
G|------12--14----------------------------------------------------
D|--14------------------------------------------------------------
A|----------------------------------------------------------------
E|----------------------------------------------------------------



E|------17--20--17---------------------------------20--17---------
B|--20--------------20--17---------------------------------20-----
G|--------------------------19--17--19--17--19b21-----------------
D|----------------------------------------------------------------
A|----------------------------------------------------------------
E|----------------------------------------------------------------



E|--17--20--17------17h20--17------17--20--17------17--20--17------17--
B|--------------20-------------20--------------20--------------20------
G|---------------------------------------------------------------------
D|---------------------------------------------------------------------
A|---------------------------------------------------------------------
E|---------------------------------------------------------------------



E|--17h20p17------17h20p17------17h20p17------17h20p17------
B|------------20------------20------------20------------20--
G|----------------------------------------------------------
D|----------------------------------------------------------
A|----------------------------------------------------------
E|----------------------------------------------------------



E|--17h20p17------17h20p17------17h20p17------17h20p17------
B|------------20------------20------------20------------20--
G|----------------------------------------------------------
D|----------------------------------------------------------
A|----------------------------------------------------------
E|----------------------------------------------------------



E|--17h20p17------17h20p17------17--20b21r20--17------20--17-----
B|------------20------------20--------------------20-------------
G|---------------------------------------------------------------
D|---------------------------------------------------------------
A|---------------------------------------------------------------
E|---------------------------------------------------------------



E|------17--20b21--20b21--20b21--20b21r20--17------17-----
B|--20-----------------------------------------20---------
G|--------------------------------------------------------
D|--------------------------------------------------------
A|--------------------------------------------------------
E|--------------------------------------------------------



E|--20b21--20b21--20b21r20b21r20b21r20--
B|--------------------------------------
G|--------------------------------------
D|--------------------------------------
A|--------------------------------------
E|--------------------------------------
http://www.guitartabcreator.com
Guitar Tab Creator is intended to store guitar tab created through the tool. It currently does not support in-line text editing. Any text you place in here will be lost. If you need to comment on your tab, please use the "Tab Notes" section located below.