tab 1

E|-----------------------5--------3--------1--------------------------------
B|-----6-----8-----6--------6--------3--------1-----------------------------
G|--5-----5-----5-----5--------5--------5--------3-----3-----3--2--3--2--0--
D|--------------------------------------------------3-----3-----------------
A|--------------------------------------------------------------------------
E|--------------------------------------------------------------------------



E|--5--------3--------1--------------------------------
B|-----6--------3--------1-----------------------------
G|--------5--------5--------3-----3-----3--2--3--2--0--
D|-----------------------------3-----3-----------------
A|-----------------------------------------------------
E|-----------------------------------------------------



E|--------------------------------------------------------------
B|--------------------------------------------------------------
G|-----2-----3-----5--3--2--------------------------------------
D|--3-----3-----3--------------2--5-----0--3-----2--3--2--0-----
A|--------------------------3--------1--------3-----------------
E|--------------------------------------------------------------



E|--------------------------------------------
B|--------------------------------------------
G|--5--3--2-----------------------------------
D|--------------2--5-----0--3-----2--3--2--0--
A|-----------3--------1--------3--------------
E|--------------------------------------------
Guitar Tab Creator is intended to store guitar tab created through the tool. It currently does not support in-line text editing. Any text you place in here will be lost. If you need to comment on your tab, please use the "Tab Notes" section located below.