Till the end

(/) Slide Up  (\) Slide Down  (h) Hammer On  (p) Pull Off  (b) Bend (r) Release (v) Vibrato
E|--------------------------------------
B|--------------------------------------
G|-----1--------1--------2--------2-----
D|--2-----2--2-----2--0-----0--0-----0--
A|--------------------------------------
E|--------------------------------------



E|--------------------------
B|--------------------------
G|--------------------------
D|--------------------------
A|--------------------------
E|--0--7--0--7--0--5--3--0--



E|------------------------------------------------------------------------|--
B|--3/5--5b7--5v--5/9--10--7--9v--10p9-----5v--5/12--12b14--12p9----------|--
G|--------------------------------------7-------------------------11--9v--|--
D|------------------------------------------------------------------------|--
A|------------------------------------------------------------------------|--
E|------------------------------------------------------------------------|--



E|---------------------------------------|--
B|---------------------------------------|--
G|--11--9--------------------------------|--
D|---------11--9-------------------------|--
A|----------------11--9\7--7/9--9\7--7v--|--
E|---------------------------------------|--
http://www.guitartabcreator.com
Guitar Tab Creator is intended to store guitar tab created through the tool. It currently does not support in-line text editing. Any text you place in here will be lost. If you need to comment on your tab, please use the "Tab Notes" section located below.