LH 1

(/) Slide Up  (\) Slide Down  (h) Hammer On  (p) Pull Off  (b) Bend (r) Release (v) Vibrato


E|-------------------------------|-----------------------------------|-------------------------
B|-------------------------------|-----------------------------------|-------------------------
G|-------------------------------|-----------------------------------|-------------------------
D|-------------------------------|-----------------------------------|-------------------------
A|-----------5-4/5-3-2/3-6-5-0---|-----------5-4/5-3-2/3-6-5-0-------|-6-5-0-4-3-0-2-1-0-------
E|-3-0-2-3-0-------------------5-|-3-0-2-3-0-------------------6-5-0-|-------------------6-5-0-



E|---------------|---------------------------------|-----------|---------------------|-
B|---------------|---------------------------------|-----------|---------------------|-
G|---------------|---------------------------------|-----------|---------------------|-
D|---------------|---------------------------------|-----------|---------------------|-
A|---------------|-------------------------3/5-3/6-|-----------|---------------------|-
E|-1-1-1-2-3-5-4-|-0-0-0-2-3-0-0-0-5-4-0-0---------|-1-1-1-1-1-|-4-4-4-4/6-4-4-6-5-0-|-
http://www.guitartabcreator.com
Guitar Tab Creator is intended to store guitar tab created through the tool. It currently does not support in-line text editing. Any text you place in here will be lost. If you need to comment on your tab, please use the "Tab Notes" section located below.