HALF LIFE

(/) Slide Up  (\) Slide Down  (h) Hammer On  (p) Pull Off  (b) Bend (r) Release (v) Vibrato


E|--------------------|---------------------------------------------|-
B|--------------------|---------------------------------------------|-
G|--------------------|---------------------------------------------|-
D|--------------------|---------------------------------------------|-
A|-------7------------|-------7------------------7----------------7-|-
E|-8-7-7---6-7-7-8-10-|-8-7-7---6-7-7-8-10-7-7-8---7-7-8-10-7-7-8---|-



E|---------------------|---------------|---------------|-----------------|-------------------|-
B|---------------------|---------------|---------------|-----------------|-------------------|-
G|---------------------|---------------|---------------|-----------------|-------------------|-
D|---------------------|---------------|---------------|-----------------|-------------------|-
A|-5-4-5-4---------7-7-|-5-5-----6-6-6-|-5-5-----------|-5-5-----6-6-----|-5-5---------------|-
E|---------5-5-7-7-----|-----6-6-------|-----6-6-4-4-4-|-----6-6-----4-4-|-----6-6-4-4-4-4-4-|-
http://www.guitartabcreator.com
Guitar Tab Creator is intended to store guitar tab created through the tool. It currently does not support in-line text editing. Any text you place in here will be lost. If you need to comment on your tab, please use the "Tab Notes" section located below.