Tearsinheaven

(/) Slide Up  (\) Slide Down  (h) Hammer On  (p) Pull Off  (b) Bend (r) Release (v) Vibrato


E|-------------------------------------------------------------------------------------------------
B|----2-----2-----0-----0--2-----2-----2-----2-----3-----3-----0-----0-----2-----2-----2-----2-----
G|----2-----2-----1-----1--2-----2-----2-----2-----2-----2-----1-----1-----2-----2-----2-----2-----
D|-------------------------------------------------0--0-----0--------------------------------------
A|----0--0-----0-----------------------------------------------------------0--0-----0-----0-----0--
E|----------------0--0-----2--2-----2-----0-----0--------------0--0-----0--------------------------



E|--------------------------------------------------------------------------------------------
B|--2-----2-----0-----0--2-----2-----2-----2-----3-----3--3--2-----2--0-----0-----0-----0-----
G|--2-----2-----1-----1--2-----2-----2-----2-----2-----2--2--2-----2--1-----1-----1-----1-----
D|-----------------------------------------------0--0--0--0-----------------------------------
A|--0--0-----0-----------------------------------------------0--0-----------------------------
E|--------------0--0-----2--2-----2-----0-----0-----------------------0--0-----0-----0-----0--



E|--------------------------------------------------------------------------------------------
B|--1-----1-----3-----3--1-----1-----3-----3--3-----3-----0-----0-----3-----3-----3-----3-----
G|--0-----0-----0-----0--2-----2-----2-----2--0-----0-----0-----0-----2-----2-----0-----0-----
D|--------------------------------------------------------------------0--0-----0--------------
A|--3--3-----3-----------0--0-----0--0--0-----------------------------------------------------
E|--------------3--3--------------------------3--3-----3--0--0-----0--------------3--3-----3--



E|-----------------------------------------------------------------------------------------
B|--1-----1-----3-----3--1-----1-----3-----3--3-----3-----3-----3--0-----0-----0-----0-----
G|--0-----0-----0-----0--2-----2-----2-----2--0-----0-----0-----0--1-----1-----1-----1-----
D|-----------------------------------0--0--------------------------------------------------
A|--3--3-----3-----------0--0-----0--------------------------------------------------------
E|--------------3--3--------------------------3--3-----3-----3-----0--0-----0-----0-----0--



E|--------------------------------------------------------------------------------------------------------------
B|--2-----2-----2--2-----6-----6-----6-----6-----0-----0-----0-----0-----2-----2-----2--3-----3-----3-----3-----
G|--2-----2-----2--2-----6-----6-----6-----6-----0-----0-----0-----0-----2-----2-----2--4-----4-----4-----4-----
D|--------------------------------------------------------------------------------------4--4-----4-----4-----4--
A|-----------------------4--4-----4-----4-----4-----------------------------------------------------------------
E|--2--2-----2--------2--------------------------0--0-----0-----0-----0--2--2-----2--2--------------------------



E|--------------------------------------
B|--3-----3-----0-----0-----0-----0-----
G|--4-----4-----1-----1-----1-----1-----
D|-----4-----4--------------------------
A|--------------------------------------
E|--------------0--0-----0-----0-----0--
http://www.guitartabcreator.com
Guitar Tab Creator is intended to store guitar tab created through the tool. It currently does not support in-line text editing. Any text you place in here will be lost. If you need to comment on your tab, please use the "Tab Notes" section located below.