riffA

(/) Slide Up  (\) Slide Down  (h) Hammer On  (p) Pull Off  (b) Bend (r) Release (v) Vibrato

E|---------------------------------------------------
B|--------7-----8--------10-----8--------7-----7-----
G|--0--0-----0-----0--0------0-----0--0-----0-----0--
D|---------------------------------------------------
A|---------------------------------------------------
E|---------------------------------------------------



E|--2--
B|--0--
G|--0--
D|--0--
A|--2--
E|--3--



E|---------------------------------------------------
B|--------7-----8--------10-----8--------7-----7-----
G|--7--7-----7-----7--7------7-----7--7-----7-----7--
D|---------------------------------------------------
A|---------------------------------------------------
E|---------------------------------------------------



E|--0--
B|--3--
G|--2--
D|--0--
A|--0--
E|-----
http://www.guitartabcreator.com
Guitar Tab Creator is intended to store guitar tab created through the tool. It currently does not support in-line text editing. Any text you place in here will be lost. If you need to comment on your tab, please use the "Tab Notes" section located below.