My immortal

(/) Slide Up  (\) Slide Down  (h) Hammer On  (p) Pull Off  (b) Bend (r) Release (v) Vibrato

E|--------------------------------------------
B|--------------------------------------------
G|--------------------------------------------
D|--------------------------------------------
A|-----4-----4-----4-----4-----4-----4-----4--
E|--5-----5-----5-----5-----5-----5-----5-----



E|-----------------------
B|-----------------------
G|-----------------------
D|--4-----4-----4--------
A|-----4-----4-----4--7--
E|-----------------------



E|--------------------------------------------------
B|--------------------------------------------------
G|--------------------------------------------------
D|--4-----------4-----------4-----------4-----------
A|-----5--7--4-----5--7--4-----5--7--4-----5--7-----
E|-----------------------------------------------0--



E|--------------------------
B|--------------------------
G|--------------------------
D|--------------------------
A|-----4-----4-----4-----4--
E|--5-----5-----5-----5-----



E|-----------------------
B|-----------------------
G|-----------------------
D|--4-----4-----4--------
A|-----4-----4-----4--7--
E|-----------------------



E|--------------------------------------------------
B|--------------------------------------------------
G|--------------------------------------------------
D|--4-----------4-----------4-----------4-----------
A|-----5--7--4-----5--7--4-----5--7--4-----5--7-----
E|-----------------------------------------------0--



E|-----------------------------------
B|-----------------------------------
G|-----------------------------------
D|--0--4--2--0-----------------0--2--
A|--------------3--1--1--3--3--------
E|-----------------------------------



E|--------------------------------------------------------------------------
B|--------------------------------------------------------------------------
G|--------------------------------------------------------------------------
D|--4-----------4-----------4-----------4-----------4-----------4-----------
A|-----5--7--4-----5--7--4-----5--7--4-----5--7--4-----5--7--4-----5--7-----
E|-----------------------------------------------------------------------0--



E|-----------------
B|-----------------
G|-----------------
D|-----------------
A|-----4-----4-----
E|--5-----5-----5--
http://www.guitartabcreator.com
Guitar Tab Creator is intended to store guitar tab created through the tool. It currently does not support in-line text editing. Any text you place in here will be lost. If you need to comment on your tab, please use the "Tab Notes" section located below.