The Wicker Man

Iron Maiden - Wicker Man
Tabbed By: the_trooper
Email: cmchugh2001@hotmail.com

Tuning: Standard (E A D G B E)

Authors: (Smith/Harris/Dickinson)

Tab notation:

p = pull-off x = dead note (left hand)
h = hammer-on * = palm mute (right hand)
t = tap-on X\ = pick slide
~ = vibrato hm = harmonic
/ = slide up ah = artificial harmonic
\ = slide down ( ) = ghost note
^ = bend tr = trill
^r = bend and release tm = trem picking

INTRO:
->(0:00-0:05)

G)|---------------------------------------------------------------|
D)|-------------------------rest----------------------------------| Steve
A)|---------------------------------------------------------------| Harris
E)|---------------------------------------------------------------|

*---------------------------------------------------------------------------*

->(0:05-0:10)

G)|-----------------------------------------------5------12-------|
D)|-----------------------------------------------5------12-------| Steve
A)|--7--7-----------7--7-----------7--7-----------3------10-------| Harris
E)|---------------------------------------------------------------|

*---------------------------------------------------------------------------*

G)|--9--------------9--------------9--------------5------12-------|
D)|--9--------------9--------------9--------------5------12-------| Steve
A)|--7--------------7--------------7--------------3------10-------| Harris
E)|-----0-0-0-0-0-0----0-0-0-0-0-0----0-0-0-0-0-0----0-0------0-0-|

*---------------------------------------------------------------------------*

VERSE 1:
Riff 1 x 4 times
->(0:20-0:39)

G)|--9--------------9--------------9--------------5------12-------|
D)|--9--------------9--------------9--------------5------12-------| Steve
A)|--7--------------7--------------7--------------3------10-------| Harris
E)|-----0-0-0-0-0-0----0-0-0-0-0-0----0-0-0-0-0-0----0-0------0-0-|

*---------------------------------------------------------------------------
*

PRE-CHORUS:
Riff 2 x 2 times
->(0:39-0:57)

G) |--7-----------5----------------------7-----------------5-------------------|
D) |--7-----------5----------------------7-----------------5------------5--7---|
A) |--5--55555555-3--33333-10-10-10--9-7-5--5555555555555--3-333333333--5--7---|
E) |--------------------------------------------------------------------3--5---|

*---------------------------------------------------------------------------*

CHORUS:
Riff 3 x 2 times
->(0:58-1:18)

G)|--------------9-----------------5--------------------------------------------|
D)|--------------9-----------------5-----------------5-----------------7--------| Steve
A)|--7--7--7--7--7-----3--3--3--3--3-----------------5-----------------7--------| Harris
E)|--------------------------------------3--3--3--3--3-----5--5--5--5--5--------|

*---------------------------------------------------------------------------*


G)|--------------9-----------------12----------------5--------------------------|
D)|--------------9-----------------12----------------5-----5-----7--------------| Steve
A)|--7--7--7--7--7-----10-10-10-10-10----3--3--3--3--3-----5-----7--------------| Harris
E)|--------------------------------------------------------3-----5--------------|

*---------------------------------------------------------------------------*

VERSE 2:
Riff 1 x 4 times
->(1:18-1:37)
G)|--9--------------9--------------9--------------5------12-------|
D)|--9--------------9--------------9--------------5------12-------| Steve
A)|--7--------------7--------------7--------------3------10-------| Harris
E)|-----0-0-0-0-0-0----0-0-0-0-0-0----0-0-0-0-0-0----0-0------0-0-|

*---------------------------------------------------------------------------*

PRE-CHORUS:
Riff 2 x 2 times
->(1:38-1:56)

G) |--7-----------5----------------------7-----------------5-------------------|
D) |--7-----------5----------------------7-----------------5------------5--7---|
A) |--5--55555555-3--33333-10-10-10--9-7-5--5555555555555--3-333333333--5--7---|
E) |--------------------------------------------------------------------3--5---|

CHORUS:
Riff 3 x 2 times
->(1:56-2:14)

G)|--------------9-----------------5--------------------------------------------|
D)|--------------9-----------------5-----------------5-----------------7--------| Steve
A)|--7--7--7--7--7-----3--3--3--3--3-----------------5-----------------7--------| Harris
E)|--------------------------------------3--3--3--3--3-----5--5--5--5--5--------|

*---------------------------------------------------------------------------*

G)|--------------9-----------------12----------------5--------------------------|
D)|--------------9-----------------12----------------5-----5-----7--------------| Steve
A)|--7--7--7--7--7-----10-10-10-10-10----3--3--3--3--3-----5-----7--------------| Harris
E)|--------------------------------------------------------3-----5--------------|

*---------------------------------------------------------------------------*

SOLO 1:
->(2:15-2:32)

G)|--9--------------9--------------5------------------------------|
D)|--9--------------9--------------5--------------5------7--------| Steve
A)|--7--------------7--------------3--3-3-3-3-3-3-5------7--------| Harris
E)|-----0-0-0-0-0-0----0-0-0-0-0-0----------------3--3-3-5--5-5---|

*---------------------------------------------------------------------------*

G)|--9--------------9--------------5---------------------12-------|
D)|--9--------------9--------------5--------------5------12-------| Steve
A)|--7--------------7--------------3--3-3-3-3-3-3-5------10-10-10-| Harris
E)|-----0-0-0-0-0-0----0-0-0-0-0-0----------------3--3-3----------|

*---------------------------------------------------------------------------*

G)|--9--------------9--------------5------------------------------|
D)|--9--------------9--------------5--------------5------7--------| Steve
A)|--7--------------7--------------3--3-3-3-3-3-3-5------7--------| Harris
E)|-----0-0-0-0-0-0----0-0-0-0-0-0----------------3--3-3-5--5-5---|

*---------------------------------------------------------------------------*

G)|--9--------------9--------------5---------------------12-------|
D)|--9--------------9--------------5--------------5------12-------| Steve
A)|--7--------------7--------------3--3-3-3-3-3-3-5------10-10-10-| Harris
E)|-----0-0-0-0-0-0----0-0-0-0-0-0----------------3--3-3----------|

*---------------------------------------------------------------------------*

SOLO 2:
->(2:33-2:51)

G)|-----------------------------------------------------------------------|
D)|--------------9-----------------7-----------------5-----------------7--|Steve
A)|--------------9-----------------7-----------------5-----------------7--|Harris
E)|--7--7--7--7--7-----5--5--5--5--5-----3--3--3--3--3-----5--5--5--5--5--|

*---------------------------------------------------------------------------*

G)|-----------------------------------------------------------------------|
D)|--------------9-----------------7-----------------5-----------------10-|Steve
A)|--------------9-----------------7-----------------5-----------------10-|Harris
E)|--7--7--7--7--7-----5--5--5--5--5-----3--3--3--3--3-----8--8--8--8--8--|

*---------------------------------------------------------------------------*

G)|-----------------------------------------------------------------------|
D)|--------------9-----------------7-----------------5-----------------7--|Steve
A)|--------------9-----------------7-----------------5-----------------7--|Harris
E)|--7--7--7--7--7-----5--5--5--5--5-----3--3--3--3--3-----5--5--5--5--5--|

*---------------------------------------------------------------------------*

G)|-----------------------------------------------------------------------|
D)|--------------9-----------------7-----------------5-----------------10-|Steve
A)|--------------9-----------------7-----------------5-----------------10-|Harris
E)|--7--7--7--7--7-----5--5--5--5--5-----3--3--3--3--3-----8--8--8--8--8--|

*---------------------------------------------------------------------------*

SOLO 3:
->(2:51-3:09)

G)|--9--------------9--------------5------------------------------|
D)|--9--------------9--------------5--------------5------7--------| Steve
A)|--7--------------7--------------3--3-3-3-3-3-3-5------7--------| Harris
E)|-----0-0-0-0-0-0----0-0-0-0-0-0----------------3--3-3-5--5-5---|

*---------------------------------------------------------------------------*

G)|--9--------------9--------------5---------------------12-------|
D)|--9--------------9--------------5--------------5------12-------| Steve
A)|--7--------------7--------------3--3-3-3-3-3-3-5------10-10-10-| Harris
E)|-----0-0-0-0-0-0----0-0-0-0-0-0----------------3--3-3----------|

*---------------------------------------------------------------------------*

G)|--9--------------9--------------5------------------------------|
D)|--9--------------9--------------5--------------5------7--------| Steve
A)|--7--------------7--------------3--3-3-3-3-3-3-5------7--------| Harris
E)|-----0-0-0-0-0-0----0-0-0-0-0-0----------------3--3-3-5--5-5---|

*---------------------------------------------------------------------------*

G)|--9--------------9--------------5---------------------12-------|
D)|--9--------------9--------------5--------------5------12-------| Steve
A)|--7--------------7--------------3--3-3-3-3-3-3-5------10-10-10-| Harris
E)|-----0-0-0-0-0-0----0-0-0-0-0-0----------------3--3-3----------|

*---------------------------------------------------------------------------*

CHORUS:
Riff 3 x 4 times
->(3:10-3:47)

G)|--------------9-----------------5--------------------------------------------|
D)|--------------9-----------------5-----------------5-----------------7--------| Steve
A)|--7--7--7--7--7-----3--3--3--3--3-----------------5-----------------7--------| Harris
E)|--------------------------------------3--3--3--3--3-----5--5--5--5--5--------|

*---------------------------------------------------------------------------*

G)|--------------9-----------------12----------------5--------------------------|
D)|--------------9-----------------12----------------5-----5-----7--------------| Steve
A)|--7--7--7--7--7-----10-10-10-10-10----3--3--3--3--3-----5-----7--------------| Harris
E)|--------------------------------------------------------3-----5--------------|

*---------------------------------------------------------------------------*

ENDING CHORUS:
->(3:48-4:24)

G)|-------9--------9----------5--------5------------------------------7--------7----|
D)|-------9--------9----------5--------5----------5--------5----------7--------7----| Steve
A)|--7-7--7-7-7-7--7-7---3-3--3-3-3-3--3-3--------5--------5-----5-5--5-5-5-5--5-5--| Harris
E)|------------------------------------------3-3--3-3-3-3--3-3----------------------|

*---------------------------------------------------------------------------*

G)|-------9--------9----------5--------5------------------------------7--------7----|
D)|-------9--------9----------5--------5----------5--------5----------7--------7----| Steve
A)|--7-7--7-7-7-7--7-7---3-3--3-3-3-3--3-3--------5--------5-----5-5--5-5-5-5--5-5--| Harris
E)|------------------------------------------3-3--3-3-3-3--3-3----------------------|

*---------------------------------------------------------------------------*

G)|-------9--------9----------5--------5------------------------------7--------7----|
D)|-------9--------9----------5--------5----------5--------5----------7--------7----| Steve
A)|--7-7--7-7-7-7--7-7---3-3--3-3-3-3--3-3--------5--------5-----5-5--5-5-5-5--5-5--| Harris
E)|------------------------------------------3-3--3-3-3-3--3-3----------------------|

*---------------------------------------------------------------------------*

->(4:24-4:38)
G)|-------9--------9----------5--------5-------------------------7------------------|
D)|-------9--------9----------5--------5----------5--------5-----7------------------| Steve
A)|--7-7--7-7-7-7--7-7---3-3--3-3-3-3--3-3--------5--------5-----5------------------| Harris
E)|------------------------------------------3-3--3-3-3-3--3-3----------------------|

*---------------------------------------------------------------------------*

Guitar Tab Creator is intended to store guitar tab created through the tool. It currently does not support in-line text editing. Any text you place in here will be lost. If you need to comment on your tab, please use the "Tab Notes" section located below.