Shine,downs - Secönd Chänce

Dråpp-De tjuning

Versch
G|-------------------------------------------------------|
D|-------------------------------------------------------|
A|--0--0-0--0-0--3--3-3--3-3-----------------------------|
D|----------------------------3--3-3--3-3--3--3-3--3-3---|

Pre Chorus
G|------------------------------------------|
D|------------------------------------------|
A|-------------0-0---0----------------3-----|
D|--5-5-0-5-0------2---2--3-1-3-1-3-----3---|

Chorus
G|-----------------------------------------------------------------|
D|---------------------------------0-0-0-0-0-0-0-0-6-6-6-6-6-6-6-6-|
A|-0-0-0-0-0-0-0-0-3-3-3-3-3-3-3-3---------------------------------|
D|-----------------------------------------------------------------|

Bridge
G|----------------------------------------------------|
D|----------------------------------------------------|
A|----------6---------------------6----------------6--|
D|-0----3--------5-----0----3---------5----0---6------|

Versch x2

Pre-Chorus x1

Chorus x3

Versch

Pre-Chorus

Chorus

Bridge

Chorus x3

Sleut!
Guitar Tab Creator is intended to store guitar tab created through the tool. It currently does not support in-line text editing. Any text you place in here will be lost. If you need to comment on your tab, please use the "Tab Notes" section located below.