Night's Blood bass tab

Standard Tuning

Riff 1 (intro)

G|------------------------------------------------------------------------
D|------------------------------------------------------------------------
A|--------------7------------------7------------------7------------------7
E|--8-7-8-8-7-8--00000000000-8-7-8--00000000000-8-7-8--00000000000-8-7-8--

----------------------------|
----------------------------|
-------------------------7--|
-00000000000-8-7-8-8-7-8----|



Riff 3

G|-------------------------------------------------|
D|------------------------------------54-----------|
A|--3-5-6-3-653-----------7------------------5-7---|
E|--------------1-1-1-0-0---0-0-6-0-0----0-0-------|

G|-------------------------------------------------|
D|----------------------9s10-----------------------|
A|--3-5-6-3-653------------------9s10-----7--------|
E|--------------1-1-0-0------0-0------0-0--6-0-0-0-|
Guitar Tab Creator is intended to store guitar tab created through the tool. It currently does not support in-line text editing. Any text you place in here will be lost. If you need to comment on your tab, please use the "Tab Notes" section located below.