Highway Robbery by Vonnegutt Bass Tab

Bass Tab by: LipPeLiPpLi

Highway Robbery by Vonnegutt

(h) Hammer On

G|----------4----------4--6--|
D|--------6--6----------6--6-| Riff 1
A|--4-467--7---764-467------7|
E|---------------------------|




G|----------4------------4---|
D|--------6--6---------6--6--| Riff 2a
A|--4-467--7---764-467--7---7|
E|---------------------------|




G|----------4----------k------|
D|--------6--6----------y-----| Riff 2b
A|--4-467--7---764-467---l----|
E|------------------------e---|




G|---------------------------|
D|-------4---(2)-------------| Riff 3
A|--4---------7-----77-------|
E|----4h5--4h5--4h55---------|

Riff Order:

Riff 1 x1
Riff 2a x3
Riff 3 x4
Riff 1 x1
Riff 2a x3
Riff 3 x4
Riff 1 x1
Riff 2a x1
Riff 2b x1
Riff 2a x1
Riff 3 x12

http://www.guitartabcreator.com
Guitar Tab Creator is intended to store guitar tab created through the tool. It currently does not support in-line text editing. Any text you place in here will be lost. If you need to comment on your tab, please use the "Tab Notes" section located below.