while my guitar gently weeps

(/) Slide Up  (\) Slide Down  (h) Hammer On  (p) Pull Off  (b) Bend (r) Release (v) Vibrato

(W|WW) Whole (H|HH) Half (Q|QQ) Quarter (E|EE) 8th (S|SS) 16th (T|TT) 32nd (X|XX) 64th

t: none none none W none none none none none none none none none none none none none none none none none
E|------------------------------------------------------------------------------------
B|---2---2---2------2---2---2---------2---2---2---2---2---2---2---------------0---1---
G|---0------------------------------------------------------------2---2---2-----------
D|------------------------------------------------------------------------------------
A|------------------------------------------------0-----------------------------------
E|------------------------------------3-----------2-----------------------------------


t: none none none none none none none none none none
E|-----------------------------------------
B|---0---1---3-----------1---------1---3---
G|-------------------2---------------------
D|---------------3-------------------------
A|-----------------------------------------
E|-----------1-----------------------------
http://www.guitartabcreator.com
Guitar Tab Creator is intended to store guitar tab created through the tool. It currently does not support in-line text editing. Any text you place in here will be lost. If you need to comment on your tab, please use the "Tab Notes" section located below.