Heart in Pain - Git. II

(/) Slide Up  (\) Slide Down  (h) Hammer On  (p) Pull Off  (b) Bend (r) Release (v) Vibrato
t: E E E E E E E E undefined E E E E E E E E undefined E E E E E E E E undefined E E E E E E E E undefined E E E E E E E E undefined
E|-----------------|-----------------|-----------------|-----------------|-----------------|---
B|-----------------|-----------------|-----------------|-----------------|-----------------|---
G|-----------------|-------------7---|-6-----4-----7---|-6-----------7---|-6-----4-----7---|---
D|-4-4-4-4-4-4-4-4-|-4-4-4-4-4-4---4-|---4-4---4-4---4-|---4-4-7-4-4---4-|---4-4---4-4---4-|---
A|-----------------|-----------------|-----------------|-----------------|-----------------|---
E|-----------------|-----------------|-----------------|-----------------|-----------------|---



E|--------------------------|--------------------------|--------------------------|--
B|--5-----------------------|--------------------------|--------------------------|--
G|-----------7--------6-----|--7--------6--------------|--4--------4--------4-----|--
D|-----4--4-----4--4-----4--|-----4--4-----4--4--7--4--|-----4--4-----4--4-----4--|--
A|--------------------------|--------------------------|--------------------------|--
E|--------------------------|--------------------------|--------------------------|--



E|---------------------------|--------------------------|--------------------------|--
B|---------------------------|--------------------------|--------------------------|--
G|--4--------4--4--4--4------|--2--4------4--4--4--4----|--2--4------4--4--2--4----|--
D|--4--------4--4--4--4------|--2--4------4--4--4--4----|--2--4------4--4--2--4----|--
A|---------------------------|--------------------------|--------------------------|--
E|---------------------------|--------------------------|--------------------------|--



E|---------------------------|--------------------------|-------------------------|-----
B|---------------------------|--------------------------|-------------------------|-----
G|--9----9--5----------------|--4--------4--------------|--2--4------4------------|-----
D|--9----9--5----------------|--4--------4--------------|--2--4------4------------|-----
A|---------------------------|--------------------------|-------------------------|-----
E|---------------------------|--------------------------|-------------------------|-----



E|-------------------------|---------------------------|---------------------------|--
B|-------------------------|---------------------------|---------------------------|--
G|--9--------4------9------|----4------------9----9----|--4------------------------|--
D|--8--------4------8------|----4------------8----9----|--4------------------------|--
A|-------------------------|---------------------------|---------------------------|--
E|-------------------------|---------------------------|---------------------------|--
http://www.guitartabcreator.com
Guitar Tab Creator is intended to store guitar tab created through the tool. It currently does not support in-line text editing. Any text you place in here will be lost. If you need to comment on your tab, please use the "Tab Notes" section located below.