time machine

(/) Slide Up  (\) Slide Down  (h) Hammer On  (p) Pull Off  (b) Bend (r) Release (v) Vibrato

E|--3-----------1-----------6-----1--------3--6--8--8--3--6--8--8--3--8--6--6--4--8--6--6--------
B|--4-----1--3--1-----1-----8-----3--3--4--------------------------------------------------4-----
G|--5--0--------1--------3--8--8--3--------------------------------------------------------------
D|-----------------1-----------------------------------------------------------------------------
A|-----------------------------------------------------------------------------------------------
E|-----------------------------------------------------------------------------------------------



E|--3--6--------3--6--3--3--6--8--8--3--6--6--8--10--11--11--6--10--11--11--11--11--6--6--4--4-----
B|--------4--4--3----------------------------------------------------------------------------------
G|-------------------------------------------------------------------------------------------------
D|-------------------------------------------------------------------------------------------------
A|-------------------------------------------------------------------------------------------------
E|-------------------------------------------------------------------------------------------------



E|--3--8--10--10--6--6--3--3--1--10--8--8--6--6--10--11--11--11--11--3--3--3--6--6--8--6--6--6-----
B|-------------------------------------------------------------------------------------------------
G|-------------------------------------------------------------------------------------------------
D|-------------------------------------------------------------------------------------------------
A|-------------------------------------------------------------------------------------------------
E|-------------------------------------------------------------------------------------------------



E|--8--10--8--8--6--8--10--11--11--11--11--11--6--6--11--11--6--6--6--6--11--11--10--------3--1--
B|-----------------------------------------------------------------------------------------------
G|-----------------------------------------------------------------------------------3--3--------
D|-----------------------------------------------------------------------------------------------
A|-----------------------------------------------------------------------------------------------
E|-----------------------------------------------------------------------------------------------



E|--3-----------3--1--4--------4-----------3--1--4-----------4-----------3--1--4--3--1-----------
B|--4-----------------2--1--2--6--------------------2--1--2--6-----------------4--------4--4--4--
G|--3--3--3--3--------------------3--3--3-----------------------3--3--3--------5-----------------
D|-----------------------------------------------------------------------------------------------
A|-----------------------------------------------------------------------------------------------
E|-----------------------------------------------------------------------------------------------



E|--------------3--3-----3--1--3-----------6--6--6--6--3--1--------------1--1-----1--3--6--3--1--
B|--1--1-----------------------4-----4--4--------6-----------1--2--4--4--------4--------4--------
G|--------3--3--3--3--3--3-----3--3--------------6--------------------5--------------------------
D|--------------------------------------------------------------------6--------------------------
A|-----------------------------------------------------------------------------------------------
E|-----------------------------------------------------------------------------------------------



E|--3--1--------6--3--1--3--1-----------------------------------------------------------------------
B|--------4--4--4--------------4--4-----------------1--1--4--4--4--4--4--4--4--3-----3--3--3--3-----
G|-----------------------------------1--1--1--1--0--1--1--5--------------------3-----3--------------
D|--------------------------------------------------------6--------------------5--5--5--------------
A|--------------------------------------------------------------------------------------------------
E|--------------------------------------------------------------------------------------------------



E|--------3-----1--------------------------1-----------------------------------------------1--1-----
B|--3-----1-----1--1--4--3--1--3--4--3--4-----4--4--1--1--1--4--4--4--4--4--4-----4-----4-----------
G|-----------0-----0--5-----0--------3--------5--5--------------------5--------0--5--0--5-----------
D|-----3-----------------------------3--------6--6--------------------6-----------------------------
A|--------------------------------------------------------------------------------------------------
E|--------------------------------------------------------------------------------------------------



E|--1-----------------------3--1-----1--------3--1--3-----------3--1--4--------4-----------3--1--
B|-----4--8--6--4--8--6--4--3--3--4--3--------------4-----------------2--1--2--6-----------------
G|--------5--5--5--5--5--5--------------3--3--------3--3--3--3--------------------3--3--3--------
D|-----------------------------------------------------------------------------------------------
A|-----------------------------------------------------------------------------------------------
E|-----------------------------------------------------------------------------------------------



E|--4--3--1-----------------------3--3-----3--1--3--------6--6--6--4--3--1-----------------1-----
B|--4--------4--4--4--1--1-----------------------4--4--4--------6-----------4--1--2--4--4--------
G|--5-----------------------3--3--3--3--3--3-----3--------------6-----------------------5--------
D|--------------------------------------------------------------------------------------6--------
A|-----------------------------------------------------------------------------------------------
E|-----------------------------------------------------------------------------------------------



E|--1-----1--3--6--3--1--3--1--------6--3--1--3--1--------------6--3--1--3--1-----------1--3-----
B|-----4--------4--------------4--4--4--------------4--4--4--4-----------------4--4--4-----------
G|--------------------------------------------------------1--1-----------------------------------
D|-----------------------------------------------------------------------------------------------
A|-----------------------------------------------------------------------------------------------
E|-----------------------------------------------------------------------------------------------



E|--1--3--------------------1--3--------
B|--------4--4--1--4--4--4--------1--4--
G|-----------------------------------3--
D|--------------------------------------
A|--------------------------------------
E|--------------------------------------
http://www.guitartabcreator.com
Guitar Tab Creator is intended to store guitar tab created through the tool. It currently does not support in-line text editing. Any text you place in here will be lost. If you need to comment on your tab, please use the "Tab Notes" section located below.