how great is your love(2)

(/) Slide Up  (\) Slide Down  (h) Hammer On  (p) Pull Off  (b) Bend (r) Release (v) Vibrato

E|--7--12--14--16--14--7--9--7--0-----5--5--7--9--7--4--9--7--7--7--19--16--14--11--11--12--9-----
B|---------------------------------2-----------------------7--------------------------------------
G|---------------------------------------------------------8--------------------------------------
D|------------------------------------------------------------------------------------------------
A|------------------------------------------------------------------------------------------------
E|------------------------------------------------------------------------------------------------



E|------------------7--7--12--14--16--14--7--9--7--0-----5--5--7--9--7--4--9--7--12--9--11--12-----
B|--0-------------------------------------------------2-----------------------7--12----------------
G|--9--8--9--11--9------------------------------------------------------------8--------------------
D|-------------------------------------------------------------------------------------------------
A|-------------------------------------------------------------------------------------------------
E|-------------------------------------------------------------------------------------------------



E|--11--7--7--4--9--0--0--0--9--11--12--14--7--7--14--12--11--9--11--12--11--9--7--5--9---11-----
B|------------------0--0--0-------------14----------------12---------12------------5--10---------
G|------------------------2-------------16-------------------------------------------------------
D|-----------------------------------------------------------------------------------------------
A|-----------------------------------------------------------------------------------------------
E|-----------------------------------------------------------------------------------------------



E|--12--14----------14--14-----4--5--2--0--2--0--0--2--4--5--7-----------------------------------
B|------14--------------17--0--5--------------0--------------7--------9--7-----------0--0--0-----
G|------16--16--16------18-----6--------------1--------------9--9--9-----9--9--9--9--------------
D|----------------------19-----7-----------------------------------------------------------------
A|-----------------------------------------------------------------------------------------------
E|-----------------------------------------------------------------------------------------------



E|--0-----0--0--2--4--5--7-----------2--4--0--2--4--5--7--5--4--5--4--0--7--7--0--0--7--5--5-----
B|-----4--0--------------7--------9--5-----------------7-----------5--0--------0-----------------
G|--------1--------------9--9--9-----------------------9-----------------------------------------
D|-----------------------------------------------------------------------------------------------
A|-----------------------------------------------------------------------------------------------
E|-----------------------------------------------------------------------------------------------



E|--4--0--2--4--5--7--4--2--4--5-----------4--2-----------4--2--0-----19----------19--17--16-----
B|--7--------------5--------5--5--2--4--5--5--5--2--4--0-----------4--17--16--17--17--14--12-----
G|--4--------------6--------6--6--2--4--6-----6--------------------------------------------------
D|--------------------------------------------7--------------------------------------------------
A|-----------------------------------------------------------------------------------------------
E|-----------------------------------------------------------------------------------------------



E|--14--12--9---12--7--16--14--12--11--12--19--17--7--16--14--12--9---
B|--10--9---12---------17------14------12-------------------------12--
G|----------14---------18------14---------------------------------9---
D|--------------------------------------------------------------------
A|--------------------------------------------------------------------
E|--------------------------------------------------------------------
http://www.guitartabcreator.com
Guitar Tab Creator is intended to store guitar tab created through the tool. It currently does not support in-line text editing. Any text you place in here will be lost. If you need to comment on your tab, please use the "Tab Notes" section located below.