gee

(/) Slide Up  (\) Slide Down  (h) Hammer On  (p) Pull Off  (b) Bend (r) Release (v) Vibrato
E|--2\4--2h0--------0--2--0--0--2--0--0--2--0-----------7--7--4--7--7--4--5-----------------------
B|------------2-----------------------------------------5--5-----5--5-----5-----2-----2-----2-----
G|------------2--2-----------2-----------------4-----4-----------------------2--2--2--2--2--2-----
D|------------2--------------------------------6--6--------------------------2-----2-----2--------
A|------------------------------------------------------------------------------------------------
E|---------------------------2-----------------4--------------------------------------------------



E|--------0--------------------0-----------------------4--------------------------------7--------
B|-----2-----------------------------------------------------------------------------9-----9--7--
G|--2--2--------2-----2-----2-----2-----4-----4-----4-----4-----6-----6-----6-----6--------------
D|--2--------2--2--2--2--2--2--------6--6--6--6--6--6--------6--6--6--6--6--6--6--6--------------
A|-----------------------------------6-----6-----6-----------4-----4-----4-----4-----------------
E|-----------2-----2-----2-----------------------------------------------------------------------



E|-----------7--------------
B|--9--7--9-----9--7--9--7--
G|--------------------------
D|--------------------------
A|--------------------------
E|--------------------------
http://www.guitartabcreator.com
Guitar Tab Creator is intended to store guitar tab created through the tool. It currently does not support in-line text editing. Any text you place in here will be lost. If you need to comment on your tab, please use the "Tab Notes" section located below.