Banmal song

(/) Slide Up  (\) Slide Down  (h) Hammer On  (p) Pull Off  (b) Bend (r) Release (v) Vibrato


E|-----3--5--7-----3-----8/10--5--3--2--3--0--2--0--2--5/7--2--0--2--0-----5--3--------------
B|--3-----------------3--7----------------------------------------------3--------3--1--0--1--
G|-----------7-------------------------------------------------------------------------------
D|-----------5--5-----------------------2-----0----------------------------------------------
A|-------------------------------------------------------------3--------2-----------0--------
E|-------------------------------------------------------------------------------------------



E|--------5/7--5--
B|--1--3----------
G|----------------
D|--0-------------
A|----------------
E|----------------
http://www.guitartabcreator.com
Guitar Tab Creator is intended to store guitar tab created through the tool. It currently does not support in-line text editing. Any text you place in here will be lost. If you need to comment on your tab, please use the "Tab Notes" section located below.