Project 1

(/) Slide Up  (\) Slide Down  (h) Hammer On  (p) Pull Off  (b) Bend (r) Release (v) Vibrato


E|--------------------------------------------------------------------------------------
B|---------10-----------------10---------10-----------------10----------12----------11--
G|-------------10----------------------------10-----------------------------------------
D|------9------------------9----------9------------------9----------11----------10------
A|--10-------------10--10---------10-------------10--10---------12----------11----------
E|--------------------------------------------------------------------------------------



E|--------------------------------------------------------------
B|---------10-----------------10---------10-----------------10--
G|-------------10----------------------------10-----------------
D|------9------------------9----------9------------------9------
A|--10-------------10--10---------10-------------10--10---------
E|--------------------------------------------------------------
http://www.guitartabcreator.com
Guitar Tab Creator is intended to store guitar tab created through the tool. It currently does not support in-line text editing. Any text you place in here will be lost. If you need to comment on your tab, please use the "Tab Notes" section located below.