felesleges_rfr

(/) Slide Up  (\) Slide Down  (h) Hammer On  (p) Pull Off  (b) Bend (r) Release (v) Vibrato


E|---------------------------------------------------
B|---------------------------------------------------
G|--------------------5-----------8--------10--------
D|--------7--------3-----3-----6--------8------8-----
A|-----5-----5--1-----------4--------6------------6--
E|--3------------------------------------------------



E|--------------------------3--3----5--
B|--------------------------3--3----5--
G|--------------------5-----5--5----7--
D|--------7--------3-----3--5--5----7--
A|-----5-----5--1-----------3--3----5--
E|--3----------------------------------
http://www.guitartabcreator.com
Guitar Tab Creator is intended to store guitar tab created through the tool. It currently does not support in-line text editing. Any text you place in here will be lost. If you need to comment on your tab, please use the "Tab Notes" section located below.