fugitives of economic warfare

(/) Slide Up  (\) Slide Down  (h) Hammer On  (p) Pull Off  (b) Bend (r) Release (v) Vibrato


E|-------------------------------------------
B|-------------------------------------------
G|-------------------------------------------
D|--0--0--3--0--2--0--0--3--0--2--0--3p0-----
A|----------------------------------------0--
E|-------------------------------------------



E|----------------------------------
B|----------------------------------
G|----------------------------------
D|--0-------0-------0-------0-------
A|-----5/6-----4/5-----5/6-----4/5--
E|----------------------------------



E|------------------------
B|------------------------
G|------------------------
D|--0--0-------0--0-------
A|--------5/6--------4/5--
E|------------------------



E|--5/4--4/3--3/2--2/1--1/0----------------------------------5/4--4/3--3/2--2/1--1/0---------------
B|-------------------------------------------------------------------------------------------------
G|-------------------------------------------------------------------------------------------------
D|---------------------------0-------0-------0-------0--------------------------------0-------0----
A|------------------------------5/6-----4/5-----5/6-----4/5------------------------------5/6-------
E|-------------------------------------------------------------------------------------------------
http://www.guitartabcreator.com
Guitar Tab Creator is intended to store guitar tab created through the tool. It currently does not support in-line text editing. Any text you place in here will be lost. If you need to comment on your tab, please use the "Tab Notes" section located below.