Pep Band

(/) Slide Up  (\) Slide Down  (h) Hammer On  (p) Pull Off  (b) Bend (r) Release (v) Vibrato


E|--------------------------------------------------------------------------------------
B|--------------------------------------------------------------------------------------
G|---------------------------------------------------------------------5----------------
D|-----------------------------------------------5----------5-------5-------------6-----
A|--------------------------------------------5----------5-------3-------------6--------
E|--0--3--5----0--3--6--5----0--3--5--0----3----------3---------------------4--------3--



E|--------------------------------
B|--------------------------------
G|--------------------------------
D|--8----8----10----8----8----10--
A|--------------------------------
E|--------------------------------



E|-----------------------------------------
B|-----------------------------------------
G|--4--4--4--4--4--5----7----0--4--5----0--
D|-----------------------------------------
A|-----------------------------------------
E|-----------------------------------------



E|-------------------------------------------------------------------------1--
B|----------------------------------------------------------1--1--1--1--1-----
G|----------------------------------------------------------------------------
D|----------------------------------------------------------------------------
A|--1--1-------1--1-----------------------------------------------------------
E|--------1----------1----1--1----11----11--11----6----6----------------------



E|----------------------------------------------------------------------------------------------
B|----------------------------------------------------------------------------------------------
G|----------------------------------------------------------------------------------------------
D|----------------------------------------------------------------------------------------------
A|-----------------------------------------3----3--3--3--1---------------------1--1----1--1-----
E|--3--3----3----3----3--3----3--3----3---------------------1--3--3----3--3---------------------



E|--------------------
B|--------------------
G|--------------------
D|--------------------
A|--3--3--6--6--6--8--
E|--------------------



E|----------------------------------------------------------------------
B|----------------------------------------------------------------------
G|----------------------------------------------------------------------
D|----------------------------------------------------------------------
A|-------------5--5----7--7--7----5--5------------5----5--7--7--7----5--
E|--5--5--5-------------------------------5----5------------------------
http://www.guitartabcreator.com
Guitar Tab Creator is intended to store guitar tab created through the tool. It currently does not support in-line text editing. Any text you place in here will be lost. If you need to comment on your tab, please use the "Tab Notes" section located below.