Bass Tab

(/) Slide Up  (\) Slide Down  (h) Hammer On  (p) Pull Off  (b) Bend (r) Release (v) Vibrato

E|----------------------------
B|----------------------------
G|----------------------------
D|----------------------------
A|--5----5--4--0--3--2--------
E|----------------------3--0--



E|--------------------------------------------
B|--------------------------------------------
G|--------------------------------------------
D|--5--4--5--4--5--4--------------------------
A|--------------------5--4--------5--4--------
E|--------------------------5--0--------5--0--



E|--------------------------------------------
B|--------------------------------------------
G|--------------------------------------------
D|--------------------------------------------
A|--5--0--0--0--3-----------5--0--3--2--------
E|-----------------3--3--3--------------3--0--
http://www.guitartabcreator.com
Guitar Tab Creator is intended to store guitar tab created through the tool. It currently does not support in-line text editing. Any text you place in here will be lost. If you need to comment on your tab, please use the "Tab Notes" section located below.