Love Chronicle

(/) Slide Up  (\) Slide Down  (h) Hammer On  (p) Pull Off  (b) Bend (r) Release (v) Vibrato

E|-1-0-------0-0-0-0-------0---1-3-1-1-3-1-----
B|-----3-1-1---------3-2-3-----------------1-3-
G|---------------------------2-----------------
D|---------------------------------------------
A|---------------------------------------------
E|---------------------------------------------



E|---0-1---0-1-0-------3-3-3-3-5-3-1-1-1-1-0---0-1-1-1-1-3-3-----
B|-1-----3-------3-1-1-----------------------3---------------1-1-
G|---------------------------------------------------------------
D|---------------------------------------------------------------
A|---------------------------------------------------------------
E|---------------------------------------------------------------



E|---0-1-0---5-3-3-1-1-----1-1-1-0-----5-3-3-5-5-
B|-3-------------------1-3-----------------------
G|---------2-----------------------2-2-----------
D|-----------------------------------------------
A|-----------------------------------------------
E|-----------------------------------------------



E|-5-6-5-3-1---1-1---1-1---0-1-1---0-1-1-3-3-----3-----
B|-----------3-----1-----3-------3-----------1-1---1-1-
G|-----------------------------------------------------
D|-----------------------------------------------------
A|-----------------------------------------------------
E|-----------------------------------------------------



E|-5-6-5-3-1---5-5-5-3-1-3-1-3-5-1-1-3-5-1-----5-5-5-3-1-3-1-3-5-5-
B|-----------3-----------------------------1-3---------------------
G|-----------------------------------------------------------------
D|-----------------------------------------------------------------
A|-----------------------------------------------------------------
E|-----------------------------------------------------------------



E|-
B|-
G|-
D|-
A|-
E|-
http://www.guitartabcreator.com
Guitar Tab Creator is intended to store guitar tab created through the tool. It currently does not support in-line text editing. Any text you place in here will be lost. If you need to comment on your tab, please use the "Tab Notes" section located below.