new orlans

(/) Slide Up  (\) Slide Down  (h) Hammer On  (p) Pull Off  (b) Bend (r) Release (v) Vibrato


E|-----------
B|-----------
G|-----------
D|-----------
A|--0--0--0--
E|-----------



E|----------------------------------------------
B|----------------------------------------------
G|----------------------------------------------
D|-------------------------5--7--5--7--2--0--2--
A|--0--0--3--5h7--5--0--3-----------------------
E|----------------------------------------------



E|-----------------------------------------
B|-----------------------------------------
G|-----------------------------------------
D|--5--7--5--7--5--------------------------
A|-----------------7--5--3--5--3--0-----0--
E|-----------------------------------3-----
http://www.guitartabcreator.com
Guitar Tab Creator is intended to store guitar tab created through the tool. It currently does not support in-line text editing. Any text you place in here will be lost. If you need to comment on your tab, please use the "Tab Notes" section located below.